IPB

Здравствуйте, гость ( Вход | Регистрация )

19 страниц V   1 2 3 > »   
Reply to this topicStart new topic
> Тексты песен, аккорды, трынди-брынди
Lir
сообщение Apr 28 2005, 20:14
Сообщение #1


Муза
********

Группа: Moderators
Сообщений: 1300
Регистрация: 21.4.2005
Пользователь №: 16
Имя: Nuta
Пол: Женский



Вот. Здесь можно выкладывать тексты любимых песен с аккордами и без.


--------------------
«love is betrayal. love is anguish. love is sin. love is selfish.
love is hope. love is pain. love is death. what is love? love's a bitch.»
Go to the top of the page
 
+Quote Post
YURAS
сообщение Apr 28 2005, 20:16
Сообщение #2


Одинокий
********

Группа: Members
Сообщений: 1991
Регистрация: 21.4.2005
Из: Москва
Пользователь №: 96
Пол: Мужской



Em С G H7
Малолетние шалавы
Em С G H7
На тусовку собрались
C D G H7
Мнутся на ногах костлявых
Em С G H7
Все изрядно нажрались

В угол бросили тетрадки
Было к вечеру у них
Две дешевых шоколадки
Пять бутылок на троих

У подруг заняли шмоток
И напудрили носы,
А одна из них надела
Даже чистые трусы

А на центре иномарки
Тут идет вечерний съем
И подружки завалили
Прямо в тачку все втроем

И поехали кататься
Неизвестно даже с кем
Девкам главное догнаться
Остальное без проблем

Где-то в загородной бане
Телки водку будут жрать
На столе стуча ногами
Танцы для братвы плясать

Вот такая вот прогулка
На машине с ветерком
А к утру косяк задолбим
Завтра в школу не пойдем

Эта песенка мне очень нравится могу дать в mp3!!!

Сообщение отредактировал Lir - Apr 29 2005, 00:38
Go to the top of the page
 
+Quote Post
Lir
сообщение Apr 28 2005, 20:18
Сообщение #3


Муза
********

Группа: Moderators
Сообщений: 1300
Регистрация: 21.4.2005
Пользователь №: 16
Имя: Nuta
Пол: Женский



Am G
По дорогам жаждущим,

F E Am
По дорогам жаждущим тепла

G
Я шагаю налегке,

F E Dm
Посланный за смертью с рюкзаком.

И стук колес играет старый блюз

E Am
По шпалам мимо нот.



Am G
За вином и музыкой

F E Am
Проходит быстро жизнь моя

G
И летают бабочки

F E Dm
Над стаканом водки светофор

E
Мигает глазом своим обкуренным зрачком,

Меняя цвет



F Am
Пешком по шпалам на юга (3р)

Dm
Где солнце, море, воздух,

Пиво, водка, бабы и луна.



По карману шарится
Заветный стольник и билет,
По земле катается
Пустая кружка и сухарь
И скрип нажатых тормозов
Стирает ржавые дома


Пешком по шпалам на юга (3р)
Где солнце, море, воздух,
Пиво, водка, бабы и луна.

Сообщение отредактировал Lir - Apr 28 2005, 20:20


--------------------
«love is betrayal. love is anguish. love is sin. love is selfish.
love is hope. love is pain. love is death. what is love? love's a bitch.»
Go to the top of the page
 
+Quote Post
Lir
сообщение Apr 28 2005, 20:22
Сообщение #4


Муза
********

Группа: Moderators
Сообщений: 1300
Регистрация: 21.4.2005
Пользователь №: 16
Имя: Nuta
Пол: Женский



СИД и НЕНСИ (Люмен)
Intro
1||---------------------------------------------------------
2||---------------------------------------------------------
3||------4--5--4-0---------4---5--4-0--------4---5--4-0-----
4||--2-2--2--------2-0--0----0--------0---------------------
5||--------------------------------------3-3---3--------3---
6||---------------------------------------------------------

1||------------------------
2||------------------------
3||-------5-4--------5-4---
4||-0--0--------1--1-------
5||------------------------
6||------------------------

Эта тема идёт на протяжении всей песни (куплеты), но во 2м и 3м - вместе с
аккордами!
Вены дорог, дороги вен
Машинкой размажет по кирпичности стен
Обломки империи элементы систем
И тот кто был всем тот станет никем
Но мы с тобою будем вместе как Сид и Нэнси
Сид и Нэнси
И ни за что не доживем до пенсии как Сид и Нэнси
Сид и...
Проигрыш: Em D C Am H7 Em

Em D C
Дорожки пыли, пыль дорожек
Am H7 Em
Белый смелый хитрый тоже
Покатились глаза по бледной коже
У меня есть ножик где-то ножик
И мы с тобою станем вместе как Сид и Нэнси
Сид и Нэнси
И ни за что не доживем до пенсии мы Сид и Нэнси
Сид и..

Проигрыш: Em D C Am H7 Em
Героиновый рай и они там вдвоем
И мы наверное туда попадем
По дорогам вен по дорожкам пыли
Ведь мы так любили мы были
Мы были с тобой все время вместе как Сид и Нэнси
Сид и Нэнси
И ни за что бы не дожили до пенсии как Сид и Нэнси
Сид и..


--------------------
«love is betrayal. love is anguish. love is sin. love is selfish.
love is hope. love is pain. love is death. what is love? love's a bitch.»
Go to the top of the page
 
+Quote Post
Гость_Scorpion_*
сообщение Apr 28 2005, 20:30
Сообщение #5





Guests






Валерий Кипелов - Я свободен

Надо мною тишина,
Небо полное дождя.
Дождь проходит сквозь меня,
Но боли больше нет.
Под холодный шепот звезд
Мы зажгли последний мост,
И все в бездну сорвалось.
Свободным стану я
От зла и от добра.
Моя душа была на лезвии ножа.

Я бы мог с тобою быть,
Я бы мог про все забыть,
Я бы мог тебя любить,
Но это лишь игра.
В шуме ветра за спиной
Я забуду голос твой.
И от той любви земной,
Что нас сжигала в прах,
И я сходил с ума.
В моей душе нет больше места для тебя.

Я свободен, словно птица в небесах.
Я свободен, я забыл, что значит страх.
Я свободен, с диким ветром наравне.
Я свободен, наяву, а не во сне.

Надо мною тишина,
Небо полное дождя.
Дождь проходит сквозь меня,
И я свободен вновь.
Я свободен от любви,
От вражды и от молвы,
От предсказанной судьбы
И от земных оков,
От зла и от добра...
В моей душе нет больше места для тебя.


Я свободен, словно птица в небесах.
Я свободен, я забыл, что значит страх.
Я свободен, с диким ветром наравне.
Я свободен, наяву, а не во сне

Сообщение отредактировал Lir - Apr 29 2005, 00:38
Go to the top of the page
 
+Quote Post
Таня
сообщение Apr 28 2005, 21:33
Сообщение #6


Непризнаный гений пера
***

Группа: Members
Сообщений: 127
Регистрация: 23.4.2005
Из: Москва, Коптевская, 32. квартиру сам спроси...
Пользователь №: 195
Пол: Женский



я как обычно в своём реертуаре)))):

Тату "Я сошла с ума"
------------------------
transcribed by Cyclone [cafe@mail.iks.ru]

припев:
G# G
Я сошла с ума, я сошла с ума
Cm G#
Мне нужна она, мне нужна она

Я сошла с ума, я сошла с ума
Мне нужна она, мне нужна она

G# G Cm G#
Я СО-ШЛА С У-МА

куплет:
F G
Меня полностью нет,
Абсолютно всерьез.
Ситуация help.
Ситуация SOS.

G G#
Я себя не пойму
Ты откуда взялась
Cm C#m
Почему, почему?
Hа тебя повелась

куплет:

Выключается свет
Я куда-то лечу
Без тебя меня нет
Hичего не хочу

Это медленный яд
Это сводит с ума
А они говорят - виновата сама
А они говорят - виновата сама

припев:

Я сошла с ума, я сошла с ума
Мне нужна она, мне нужна она
Я сошла с ума, я сошла с ума
Мне нужна она, мне нужна она

Я СО-ШЛА С У-МА
МHЕ HУ-ЖHА О-HАААА (просто так орется через мегафон)

[здесь соляк с такими нотами: g, g#, a#]

Без тебя я не я
Без меня тебя нет

G|--------------------1--
D|------3-----5-----3----
A|----3-----5-----3------
E|--1-----3-----1--------

А они говорят,
Говорят это бред

G|--------------------3--
D|------5-----6-----5----
A|----5-----6-----5------
E|--3-----4-----3--------

далее тоже перебором:

G#
Это солнечный яд
Золотые лучи
Cm
А они говорят
Hадо срочно лечить

F G F G
Я хотела забыть ту пору и дни
Я считала столбы и растеряных птиц
G G# G G#
Без тебя меня нет, отпусти. отпусти.
Cm C#m Cm C#m
До угла по стене, мама-папа прости..

Я сошла с ума, я сошла с ума
Мне нужна она, мне нужна она
Я сошла с ума, я сошла с ума
Мне нужна она, мне нужна она

Раз, два после пяти
Ма-ма папа прости
Я со-шла с у-ма
Раз, два после пяти
Ма-ма папа прости
Я со-шла с у-ма

проигрыш:
G# G Cm G#

Я сошла с ума, я сошла с ума
Мне нужна она, мне нужна она
Я сошла с ума, я сошла с ума
Мне нужна она, мне нужна она

Я сошла с ума, я сошла с ума
Я сошла с ума, я сошла с ума..


--------------------
............................... я точно не с этой планеты....................Я ЭЛЬФОВ ЛЮБЛЮ........................WoWик РУЛИЛ,РУЛИТ И БУДЕТ РУЛИТЬ:)





А ума все нет =)/W



ааааааааааааааааааааааааааааааааааа!!!!!!!!!!!!! куда дел нашу переписку?:(((( верни, как было=)
Go to the top of the page
 
+Quote Post
Lir
сообщение Apr 29 2005, 00:36
Сообщение #7


Муза
********

Группа: Moderators
Сообщений: 1300
Регистрация: 21.4.2005
Пользователь №: 16
Имя: Nuta
Пол: Женский



ДДТ. ЭТО ВСЕ.

Побледневшие листья окна
D
Заростают прозрачной водой.
Em
У воды нет ни смерти ни дна,
C D
Я прощаюсь стобой.

Горсть тепла после долгой зимы
Донесем, пять минут до утра
Дожевём, наше море вины
Поглощает время дыра.

Припев:
G D Em Cadd9
Это всё, что останется после меня,
G D Cadd9
Это всё, что возьму я с собой.


С нами память сидит у стола
А в руке её пламя свечи
Ты такой хорошей была
Посмотри на меня не молчи

Крики чайки на белой стене
Окольцованы чёрной луной
Hарисуй что нибудь на окне
И шепни на прощанье рекой

Припев(2 раза).

Две мечты да печали стакан
Мы, воскреснув, допили до дна.
Я не знаю, зачем тебе дан
Правит мною дорога луна.

И не плачь, если можешь - прости,
Жизнь не сахар, а смерть нам не чай.
Мне свою дорогу нести
До свидания друг и прощай.

Припев(2 раза).

Сообщение отредактировал Lir - Apr 29 2005, 00:40


--------------------
«love is betrayal. love is anguish. love is sin. love is selfish.
love is hope. love is pain. love is death. what is love? love's a bitch.»
Go to the top of the page
 
+Quote Post
Lir
сообщение Apr 29 2005, 00:42
Сообщение #8


Муза
********

Группа: Moderators
Сообщений: 1300
Регистрация: 21.4.2005
Пользователь №: 16
Имя: Nuta
Пол: Женский



Михаил Круг

День как день


Dm
День как день -
Gm A7 Dm
Также весело шуршит в саду листва,
Gm C7 F
Ведь до осени еще ей жить и жить.
Cm D Gm
Дым из пепельницы тлевших сигарет,
A A# D7
А в душе...
Gm A Dm Gm A Dm Gm A
А я в душе не верю. Нет.


Мы молчим
И никто не знает что и как сказать,
То, что каждый тонко чувствует в себе.
Жизнь к тебе несправедливою была.
И в душе,
Не смолкая, все звенят колокола.

Кто-то пьет,
Кто-то крепится, но слезы не сдержать.
Помаленьку, потихоньку сознаешь
Как тепло от слова доброго - Привет!
На душе,
Да только вот ответа нет.

На холме
Фотография и четные цветы,
Тоже срезанные с каплями росы,
На которые не прилетит пчела...
А в душе,
Не смолкая, все звенят колокола.


--------------------
«love is betrayal. love is anguish. love is sin. love is selfish.
love is hope. love is pain. love is death. what is love? love's a bitch.»
Go to the top of the page
 
+Quote Post
Таня
сообщение Apr 30 2005, 10:37
Сообщение #9


Непризнаный гений пера
***

Группа: Members
Сообщений: 127
Регистрация: 23.4.2005
Из: Москва, Коптевская, 32. квартиру сам спроси...
Пользователь №: 195
Пол: Женский



Я продолжаю в своём репертуаре)))):

Тату "30 минут"

C#5-

e|--X--|-----|-----|
h|-----|-----|-----|
g|-----|--X--|-----|
d|-----|-----|--X--|

I II III


Вступление: Fm | C#5- | Bbm | C7

Fm
Зареветь, убежать
Ab
Или дверь на замок.
C#
И молчать, и лежать,
Bbm C7
Изучать потолок.

И мечтать не как все,
Целовать небеса,
Потолок, карусель.
Полчаса, полчаса...

Припев:
Fm C#5-
Полчаса поезда под откос,
Bbm C7
Полчаса не твоя полоса.
Полчаса, полчаса - не вопрос,
Не ответ полчаса, полчаса...

Полчаса без тебя, полчаса,
Полчаса он и я, полчаса,
Каждый сам, каждый сам,
Полчаса по своим адресам.
Полчаса...

Проигрыш = Вступление

Сорвалась и как все,
Как во сне.
Я ни я...
Не моя карусель,
И мечта не моя.
Или дым, или грусть,
Или дождь по глазам.
Я вернусь, я вернусь.
Полчаса, полчаса...


--------------------
............................... я точно не с этой планеты....................Я ЭЛЬФОВ ЛЮБЛЮ........................WoWик РУЛИЛ,РУЛИТ И БУДЕТ РУЛИТЬ:)





А ума все нет =)/W



ааааааааааааааааааааааааааааааааааа!!!!!!!!!!!!! куда дел нашу переписку?:(((( верни, как было=)
Go to the top of the page
 
+Quote Post
Maska
сообщение Apr 30 2005, 10:44
Сообщение #10


Гость
*

Группа: Members
Сообщений: 13
Регистрация: 21.4.2005
Пользователь №: 74



Кино - звезда по имени солнце

Am
Белый снег, серый лед,
C
На растрескавшейся земле.
Dm
Одеялом лоскутным на ней -
G
Город в дорожной петле.
Am
А над городом плывут облака,
C
Закрывая небесный свет.
Dm
А над городом - желтый дым,
G
Городу две тысячи лет,
Dm
Прожитых под светом Звезды
Am
По имени Солнце...
И две тысячи лет - война,
Война без особых причин.
Война - дело молодых,
Лекарство против морщин.
Красная, красная кровь -
Через час уже просто земля,
Через два на ней цветы и трава,
Через три она снова жива
И согрета лучами Звезды
По имени Солнце...
И мы знаем, что так было всегда,
Что Судьбою больше любим,
Кто живет по законам другим
И кому умирать молодым.
Он не помнит слово "да" и слово "нет",
Он не помнит ни чинов, ни имен.
И способен дотянуться до звезд,
Не считая, что это сон,
И упасть, опаленным Звездой
По имени Солнце...
Go to the top of the page
 
+Quote Post
=Alex=
сообщение Apr 30 2005, 10:49
Сообщение #11


Начинающий
**

Группа: Members
Сообщений: 99
Регистрация: 21.4.2005
Из: Авангардная 14 к.1
Пользователь №: 58



Раньше в твоих глазах...

Em Em/G Hm7 Em Em/G
e|-----------------|-----------------|-----------------|
H|-----------------|-----------------|-----------------|
G|-------0-------0-|-------0---------|-------0-------0-|
D|-----4-------4---|-----7---7-------|-----4-------4---|
A|---2-------2-----|---5-------5---5-|---2-------2-----|
E|-0-------3-------|-7-----------7---|-0-------3-------|

Hm7 Em Em/G Hm7
e|-----------------|-----------------|-----------------|
H|-----------------|-----------------|-----------------|
G|-------0-----7---|-------0-------0-|-------0---------|
D|-----7---7-----0-|-----4-------4---|-----7---7-------|
A|---5-------5-----|---2-------2-----|---5-------5---5-|
E|-7---------------|-0-------3-------|-7-----------7---|


Em Em/G Hm7 Em Em/G Hm7
Раньше в твоих глазах отражались костры
e|-----------------|-----------------|-----------------|-----------------|
H|-----------------|-----------------|-----------------|-----3-----3-----|
G|-------0-------0-|-------0---------|-------0-------0-|---0-----0---0---|
D|-----4-------4---|-----7---7-------|-----4-------4---|-------0-------0-|
A|---2-------2-----|---5-------5---5-|---2-------2-----|-2---------------|
E|-0-------3-------|-7-----------7---|-0-------3-------|-----------------|


Em Em/G Hm7 Em Em/G Hm7
Теперь лишь настольная лампа рассеяный свет...
e|-----------------|-----------------|-----------------|-----------------|
H|-----------------|-----------------|-----------------|-----3-----3-----|
G|-------0-------0-|-------0---------|-------0-------0-|---0-----0---0---|
D|-----4-------4---|-----7---7-------|-----4-------4---|-------0-------0-|
A|---2-------2-----|---5-------5---5-|---2-------2-----|-2---------------|
E|-0-------3-------|-7-----------7---|-0-------3-------|-----------------|

G Hm7 Em Em/G Hm7
Что-то проходит мимо тебе становится нe по себе
e|-----------------|-----------------|-----------------|-----------------|
H|-----------------|-----------------|-----------------|-----3-----3-----|
G|-------0---------|-------0---------|-------0-------0-|---0-----0---0---|
D|-----0---0-------|-----7---7-------|-----4-------4---|-------0-------0-|
A|---2-------2---2-|---5-------5---5-|---2-------2-----|-2---------------|
E|-3-----------3---|-7-----------7---|-0-------3-------|-----------------|

Em Em/G Hm7 Em Em/G Hm7...
Это был новый день - в нём тебя нет...
e|-----------------|-----------------|-----------------|-----------------|
H|-----------------|-----------------|-----------------|-----3-----3-----|
G|-------0-------0-|-------0---------|-------0-------0-|---0-----0---0---|
D|-----4-------4---|-----7---7-------|-----4-------4---|-------0-------0-|
A|---2-------2-----|---5-------5---5-|---2-------2-----|-2---------------|
E|-0-------3-------|-7-----------7---|-0-------3-------|-----------------|


Em Em/G Hm7 Em Em/G Hm7
Раньше в твоих глазах отражалась ночь.
Em Em/G Hm7 Em Em/G Hm7
Теперь когда за окнами ночь - твои глаза спят.
G Hm7 Em Em/G Hm7
И вот на рассвете ты не заметил как начался новый день,
Em Em/G Hm7 Em Em/G Hm7...
Ты до сих пор в старом - там нет никаких преград...


--------------------

Лестничная клетка,
Дверной засов,
Решетка окна...

А так... свободные, в общем-то, люди...
Go to the top of the page
 
+Quote Post
Guitar_east
сообщение Apr 30 2005, 11:22
Сообщение #12


Продвинутый
****

Группа: Moderators
Сообщений: 252
Регистрация: 21.4.2005
Из: -
Пользователь №: 102
Имя: Boris'ka
Пол: Мужской



Закат (АРИЯ)

Проигрыш и вступление Em, C, D играются перебором 5, 4, 3

Куплет играется перебором, припев боем

Вступление Em, C, D играть 4 раза

1 Куплет
Em Am D Em
Я вижу, как закат стекла оконные плавит,
Em Am7 F# H7
День прожит, а ночь оставит тени снов в углах
Em Am D Em
Мне не вернуть назад серую птицу печали,
Em Am7 F# H7
Все в прошлом, так быстро тают замки в облаках.
Припев:
Е7 Am C G
Там все живы, кто любил меня,
E7 Am C H7
Где восход - как праздник бесконечной жизни,
E7 Am C G
Там нет счета рекам и морям,
E7 Am C H7
Но по ним нельзя доплыть домой.
Проигрыш Em, C, D играть 4 раза
2 Куплет
Вновь примирит все тьма, даже алмазы и пепел,
Друг равен врагу в итоге, а итог один…
Два солнца у меня на этом и прошлом свете,
Их вместе собой укроет горько-сладкий дым.
Припев повторяется
G D
Возьми меня с собой, пурпурная река,
G D
Прочь унеси меня с собой, закат.
Am C
Тоска о том, что было, рвется через край,
Hm C
Под крики серых птичьих стай.
Проигрыш Em, C, D играть 4 раза

Em Am D Em
Я вижу, как закат стекла оконные плавит,
Em Am F# H7 Em
День прожит, а ночь оставит тени снов в углах.


--------------------
Тот наилучший над всеми, кто всякое дело способен
Сам обсудить и заранее предвидеть - что выйдет из дела.
Чести достоин и тот, кто хорошим советам внимает.
то же не смыслит и сам ничего и чужого совета
В толк не берет - человек пустой и негодный.
Go to the top of the page
 
+Quote Post
demon_of_death
сообщение Apr 30 2005, 11:46
Сообщение #13


Друг форума
******

Группа: Members
Сообщений: 515
Регистрация: 24.4.2005
Пользователь №: 225
Пол: Мужской



Булат Окуджава

Песенка кавалергарда

> Am E7 Am
Кавалергарды, век недолог, и потому так сладок он.
> F G C
Труба трубит, откинут полог, и где-то слышен сабель звон.
> A7 Dm E7 F
Ещё рокочет голос струнный, но командир уже в седле...
> Dm E7 F
Не обещайте деве юной
> Dm E7 F } 2 раза
Любови вечной на земле!

Напрасно мирные забавы
Продлить пытаетесь, смеясь,
Не раздобыть надёжной славы,
Покуда кровь не пролилась...
И как ни сладок мир подлунный,
Лежит тревога на челе...
Не обещайте деве юной
Любови вечной на земле!

Течёт шампанское рекою,
И взор туманится слегка,
И всё как будто под рукою,
И всё как будто на века.
Крест деревянный иль чугунный
Назначен нам в грядущей мгле...
Не обещайте деве юной
Любови вечной на земле!


--------------------
...я часть той силы, что вечно хочет зла и вечно совершает благо...
Go to the top of the page
 
+Quote Post
demon_of_death
сообщение Apr 30 2005, 18:24
Сообщение #14


Друг форума
******

Группа: Members
Сообщений: 515
Регистрация: 24.4.2005
Пользователь №: 225
Пол: Мужской



Александр Галич
Код
 Облака

>      Dm
 Облака плывут, облака,
>                           Gm
 Не спеша плывут, как в кино,
 А я цыплёнка ем табака,
>          A7             Dm
 Я коньячку принял полкило.

 Облака плывут в Абакан,
 Не спеша плывут облака.
 Им тепло небось, облакам,
 А я продрог насквозь, на века!

 Я подковой вмёрз в санный след,
 В лёд, что я кайлом ковырял!
 Ведь недаром я двадцать лет
 Протрубил по тем лагерям.

 До сих пор в глазах снега наст!
 До сих пор в ушах шмона гам!..
 Эй, подайте ж мне ананас
 И коньячку ещё двести грамм!

 Облака плывут, облака,
 В милый край плывут, в Колыму,
 И не нужен им адвокат,
 Им амнистия ни к чему.

 Я и сам живу - первый сорт,
 Двадцать лет, как день, разменяв!
 Я в пивной сижу, словно лорд,
 И даже зубы есть у меня!

 Облака плывут на восход,
 Им ни пенсии, ни хлопот...
 А мне четвёртого - перевод,
 И двадцать третьего - перевод.

 И по этим дням, как и я,
 Полстраны сидит в кабаках!
 И нашей памятью в те края
 Облака плывут, облака...
 И нашей памятью в те края
 Облака плывут, облака...


--------------------
...я часть той силы, что вечно хочет зла и вечно совершает благо...
Go to the top of the page
 
+Quote Post
Таня
сообщение May 2 2005, 12:14
Сообщение #15


Непризнаный гений пера
***

Группа: Members
Сообщений: 127
Регистрация: 23.4.2005
Из: Москва, Коптевская, 32. квартиру сам спроси...
Пользователь №: 195
Пол: Женский



ТАТУ - Нас не догонят

A Ab C#m
Нас не догонят, нас не догонят,
E A Ab C#m E
Нас не догонят, нас не догонят.

A C#m
Только скажи, дальше нас двое,
A C#m
Только огни аэродрома...
A C#m
Мы убежим - нас не догонят,
F#m H
Дальше от них, дальше от дома.

A Ab
Ночь, проводник спрячь наши тени
C#m E
За облака, за облаками
A Ab C#m
Нас не найдут, нас не изменят.
A C#m
Им не достать звезды руками.

Припев:
A Ab
Небо уронит ночь на ладони,
C#m E
Нас не догонят, нас не догонят.
A Ab
Небо уронит ночь на ладони,
C#m E
Нас не догонят, нас не догонят,
A Ab C#m
Нас не догонят, нас не догонят.
E A Ab C#m E
Нас не догонят, нас не догонят...

Проигрыш: A | Ab | C#m | E

Мы убежим - все будет просто.
Ночь упадет, небо уронит,
И пустота на перекрестках,
И пустота нас не догонит...

Не говори - им не понятно,
Только без них, только не мимо.
Лучше никак, но не обратно,
Только не с ними, только не с ними.

Проигрыш: A | C#m <-(3 раза)
F#m | H


--------------------
............................... я точно не с этой планеты....................Я ЭЛЬФОВ ЛЮБЛЮ........................WoWик РУЛИЛ,РУЛИТ И БУДЕТ РУЛИТЬ:)





А ума все нет =)/W



ааааааааааааааааааааааааааааааааааа!!!!!!!!!!!!! куда дел нашу переписку?:(((( верни, как было=)
Go to the top of the page
 
+Quote Post
Lir
сообщение May 3 2005, 20:37
Сообщение #16


Муза
********

Группа: Moderators
Сообщений: 1300
Регистрация: 21.4.2005
Пользователь №: 16
Имя: Nuta
Пол: Женский



Мертвые Дельфины

На моей луне.

Am G
Снег сможет меня согреть
F Am
Ты помоги ему
G F
Душу мою отпеть здесь некому будет
Am G
Сном белым к тебе приду
F
В мысли твои войду
G
Там для себя приют найду
Припев:
Am
На моей луне
G
Я всегда один
F C
Разведу костер, посижу в тени
Am
На моей луне
G
Пропадаю я
F Am
Сам себе король, сам себе судья...
Свет, слабым лучом в окно
Сколько ему дано
Мне уже все равно
Но голос надежды
Вновь машет своим крылом
Падая вниз дождем
И я опять вхожу в твой дом
Припев...
...и снова припев.
проигрыш
Блеск этих волшебных глаз
Околдовал меня
Будто бы в первый раз я их понимаю
Смерть, я обниму рукой
И только с ней одной
Я поделюсь своей мечтой
Два припева


--------------------
«love is betrayal. love is anguish. love is sin. love is selfish.
love is hope. love is pain. love is death. what is love? love's a bitch.»
Go to the top of the page
 
+Quote Post
Triviale
сообщение May 3 2005, 20:55
Сообщение #17


пошляк
********

Группа: Members
Сообщений: 1563
Регистрация: 21.4.2005
Из: Grabli.net
Пользователь №: 7
Провайдер: koptevo.net



Лягушка.


Am......................................... Dm.....G
Шел парнишка вдоль опушки, сам не знал куда.
По пути поймал лягушку около пруда.
И закрыв глаза, он услышал вдруг.
Отпусти меня на воля друг.

Припев:
Здравствуй что тебе надо, я помочь тебе рада.
И в награду твою три желанья дарю.

Но парнишка три желанья загадать не смог.
Загадал на первый случай золота мешок,
Он теперь богат, но судьбе не рад.
Ровно через год он к пруду идет.

Припев:
Здравствуй что тебе надо, я помочь тебе рада.
И в награду твою три желанья дарю.

Но парнишка два желанья загадать не смог.
Загадал на второй случай власти он венок,
Он теперь король, но судьба не в роль.
Ровно через год к пруду он идет.

Припев:
Здравствуй что тебе надо, я помочь тебе рада.
И в награду твою три желанья дарю.

Милая моя лягушка сердцу подскажи,
Вместо денег, в место власти дай ты мне любви.
И лягушка в миг скинула свой лик.
Смотрит наш король девушка стоит.

Припев:
Здравствуй что тебе надо, я помочь тебе рада.
И в награду твою своё сердце дарю.


--------------------
Нас. С пути не собьешь, куда идем мы фиг поймешь...
Go to the top of the page
 
+Quote Post
RomOlus
сообщение May 3 2005, 21:28
Сообщение #18


Продвинутый
****

Группа: Members
Сообщений: 215
Регистрация: 21.4.2005
Из: Коптево
Пользователь №: 133



Смысловые Галлюцинации - Сердце, тише


Сердце, тише

Кому-то счастье, кому-то месть
Кому-то и то и другое
Жажда — всё, что у меня есть
Ты знаешь, что это такое

Сердце — тише — не выдавай
Мы уходим — они остаются
Если вдруг попаду не в рай,
Значит надо будет вернуться

Я специально закрыл глаза
Окна, двери, замазал щели
Чтобы видеть только тот свет
Что маячит в конце туннеля
Чтобы быть в бреду или в коме
Чтобы всё, что нажил, взорвать
Жизнь умрёт и появится снова
Это всё, что мне надо знать

Сердце — тише — не выдавай
Мы уходим — они остаются
Если вдруг попаду не в рай,
Значит надо будет вернуться


--------------------
Спасибо тем, кто меня любит - вы делаете меня лучше.
Спасибо тем, кто меня ненавидит - вы делаете меня сильнее.
Спасибо тем, кому вообще пофиг - вы нужны для массовки!
Изображение
Go to the top of the page
 
+Quote Post
Mint
сообщение May 3 2005, 22:35
Сообщение #19


Бот


Группа: Members
Сообщений: 4
Регистрация: 22.4.2005
Пользователь №: 186



Анатолий Крупнов
"Иди за мной"
Em
E |===============--
H |===============--
G |===============--
D |===-2======-3h2--
A |--2===2===2======
E |0======-0======--

Em
Полуувядших лилий аpомат
D5
Мои мечтанья легкие туманит
C5
Мне лилии о смеpти говоpят
C5 D5 E5
О вpемени когда меня не станет (2 pаза)

О вpемени когда....
Миp в успокоенной душе моей
Hичто е? не pадует, не pанит
Hе забывай моих последних дней
Пойми меня когда меня не станет

Я знаю, дpуг, доpога не длинна
И скоpо тело бpенное устанет
Hо веpю я, любовь как смеpть сильна
чюби меня, когда меня не станет

Мне чудится тайнственный обет
И ведаю, он сеpдце не обманет
Забвения тебе в pазлуке нет
Иди за мной, когда меня не станет

Сообщение отредактировал Nevianni - Sep 29 2005, 11:25
Go to the top of the page
 
+Quote Post
SaibrekS
сообщение May 3 2005, 23:17
Сообщение #20


Любопытный
***

Группа: Members
Сообщений: 103
Регистрация: 21.4.2005
Из: .Net
Пользователь №: 44
Пол: Мужской



The Memory Remains
Metallica
Reload


Tab symbols:

\ - slide
pm - palm mute
b - bend
r - release
)\
b/ \ - gradual bend and release
p - pull off
~ - tremelo
h - hammer on
Harm - harmonics
x - fret hand mutting
tr~ - trill


tune guitars down 1/2 step


Intro
pm pm pm pm pm rest
Eb------------------------------------------|
Bb------------------------------------------|
Gb------------------------------------------|
Db--7/9----9----7/9----9----7/9----9--9-----|
Ab--5/7----7----5/7----7----5/7----7--7--3--|
Eb-----0-0--0-0----0-0--0-0----0-0-------1--|
Fortune fame, mirror vane.......

Verse
The verse is divided into three different parts. It is the same basic riff just a little different on the endings. Kirk plays his riff along with Jaymz' three diffenent riffs. I'll put all the different parts together at the end.

Jaymz (Riff 1) Riff Ending

Eb------------------------------------------| |-----------|
Bb------------------------------------------| |-----------|
Gb------------------------------------------| |-----------|
Db-----------------5--7h8p7-5---------------| |--5-----4--|
Ab------7~~5--7--7------------7-------------| |-----2-----|
Eb--0-0-------------------------------------| |-3-------0-|

Kirk

Eb------------------------------------------|
Bb------------------------------------------|
Gb----------------12-14h15p14---------------|
Db------14~~12-14-------------14------------|
Ab------------------------------------------|
Eb--0-0-------------------------------------|

Jaymz (Riff 2)

Eb------------------------------------------|
Bb------------------------------------------|
Gb------------------------------------------|
Db-----------------5-7h8p7-5-8~~------------|
Ab------7~~5--7--7--------------------------|
Eb----0-------------------------------------|

Jaymz (Riff 3)
pm......
Eb------------------------------------------|
Bb------------------------------------------|
Gb------------------------------------------|
Db-----------------------5------------------|
Ab------5h7--7---------5--------------------|
Eb----0---------0--5h7----------------------|

Here is the layout of the three different verse patterns:
After the intro: Riff 1 (2x), Riff Ending (muted scratch,
harmonics)
First part of verse: Riff 1, Riff 2, Riff Ending
Second part of verse: Riff 2, Riff 3, Riff Ending

Chorus

pm pm pm pm pm
Eb----------------------------------------------|
Bb----------------------------------------------|
Gb----------------------------------------------|
Db--7/9----9----7/9----9----7/9----9------------|
Ab--5/7----7----5/7----7----5/7----7--7\5--7\5--|
Eb-----0-0--0-0----0-0--0-0----0-0----5\3--5\3--|
Fortune fame, mirror vane.......

pm pm pm pm pm rest
Eb------------------------------------------|
Bb------------------------------------------|
Gb------------------------------------------|
Db--7/9----9----7/9----9----7/9----9--9-----|
Ab--5/7----7----5/7----7----5/7----7--7--3--|
Eb-----0-0--0-0----0-0--0-0----0-0-------1--|
Fortune......................but the memory remains


This fill is played after the chorus and before Jaymz starts in on the second verse. Riff 1 is played under this fill. Try playing this fill through the neck pickup. Sounds almost exactly like the CD.

/
b/ b b b
Eb---------------------------------------------------------|
Bb--------------------------------15-------15--15----------|
Gb--14--12------------12----12-14-14-12----14--14-12----12-|
Db----------14~~12-14----14-------------14-----------14----|
Ab---------------------------------------------------------|
Eb---------------------------------------------------------|

b b
Eb--------------------------------12~~12-----------------|
Bb------15----------15------12-15--------12--------------|
Gb--14--14-12----12-14---14-----------------12-----------|
Db------------14-------------------------------14---14---|
Ab-------------------------------------------------------|
Eb-------------------------------------------------------|

Eb-------------------------|
Bb---12-12--12-12-12--15---|
Gb---12-12--12-12-12--14---|
Db-------------------------|
Ab-------------------------|
Eb-------------------------|

* bend this note up a full step and back
Guitar 1 down really fast.
Eb------------------|
Bb------6~------8---| This is the little interlude before
Gb----5---5---7-----| the "Aye, ya, da, duh, oi, whatever"
Db--3-------5-------| part.
Ab------------------|
Eb------------------|

Guitar 2
Eb---------------------------|
Bb---------------------------|
Gb-------10-----------12-----|
Db----10----10-----12----12--|
Ab--8-----------10-----------|
Eb---------------------------|
"Dance little tin goddess"

The "Da, da, da" part has about five guitars playing under it, so I'm gonna try
and tab them the best I can.

This is rhythm part under the "Aye, da, da, da" part.

Eb-----------------------------------|
Bb-----------------------------------|
Gb-----------------------------------|
Db--2--4-----2-4-2--2--4--5--2-4-2---|
Ab--2--4--5--0-2-2--2--4--5--0-2-2---|
Eb--0--2--5------0--0--2--3------0---|

These next two parts are played together with the "Da, da, da" part. It's
exactly the same as what she sings.

Eb-----------------------------------------------------|
Bb-----------------------------------------------------|
Gb-----------------------------------------------------|
Db---------------------7-7-9p7-------------------------|
Ab--7-9-10-9--10-9-5-----------9-7---7-9-10-9--10-9-10-|
Eb-----------------------------------------------------|

Eb---------------|
Bb---------------|
Gb---------------|
Db--7-7-9p7------|
Ab----------9-7--|
Eb---------------|

Eb-------------------------------------------------------|
Bb------------------------10-10-12p10--------------------|
Gb--9-11-12-11--12-11-7---------------12-9---9-11-12-11--|
Db-------------------------------------------------------|
Ab-------------------------------------------------------|
Eb-------------------------------------------------------|

Eb-------------------------------|
Bb-------------10-10-12p10-------|
Gb--12-11-12---------------12-9--|
Db-------------------------------|
Ab-------------------------------|
Eb-------------------------------|

Finally figured out the high screechy part!!! One guitar
plays the high ass part while the other doubles it lower.
The high part is played with some kind of messed up pitch
shifter effect or something.

Guitar 1
Eb--------12--------14-15----------15--------17----14--|
Bb-----12----12--12-------12----15----12-/15----12-----|
Gb---------------------------12------------------------|
Db--14-------------------------------------------------|
Ab-----------------------------------------------------|
Eb-----------------------------------------------------|

Guitar 2

Eb-----------------------------------------------------|
Bb-----------------------------------------------------|
Gb----------------------0------------------------------|
Db--------2----------4---------------0--------7-----4--|
Ab-----2-----2---2---------2-----0-----2--/5-----2-----|
Eb--0-------------------------3------------------------|


pm.............................................
Eb-----------------------------------------------------|
Bb-----------------------------------------------------|
Gb-----------------------------------------------------|
Db--5-5-5-5-5-5-5-5-5-5-5-5-5-5-5-5-5-5-5-5-5-5-5-5----|
Ab--5-5-5-5-5-5-5-5-5-5-5-5-5-5-5-5-5-5-5-5-5-5-5-5----|
Eb--3-3-3-3-3-3-3-3-3-3-3-3-3-3-3-3-3-3-3-3-3-3-3-3----|
"Ash to ash, dust to dust, fade to black, but the memory remains"

Solo before the last "da, da, da" part.

w/ wah b
Eb-3-3-3-3-3-3-3-0---0-3-5p3p0-5-------------|
Bb-------------------------------------------|
Gb--------------------------------2~2~0---0--|
Db--------------------------------------2----|
Ab-------------------------------------------|
Eb-------------------------------------------|
b
Eb--------------|
Bb--15----------|
Gb--14-12----12-|
Db--------14----|
Ab--------------|
Eb--------------|
b b
Eb--------------------------------12~~12------------|
Bb------15----------15------12-15--------12---------|
Gb--14--14-12----12-14---14-----------------12------|
Db------------14-------------------------------14---|
Ab--------------------------------------------------|
Eb--------------------------------------------------|


Eb--------------|
Bb--------------|
Gb--15-----17---|
Db--14-----16---|
Ab--------------|
Eb--------------|


Fortune fame, mirror vane, gone insane, but the memory remains

Heavy rings on fingers wave
Another star denies the grave
See the nowhere crowd cry the nowhere tears of honor
Like the twisted vines that grow
That hide and swallow mansions whole
And dim the light of an already faded prima donna

chorus

Heavy rings on cigarettes
Up tp lips that time forgets
While the Hollywood sun sets behind your back
And can't the band play on?
Just listen, they play my song

Ash to ash
Dust to dust
Fade to black

chorus

Dance little tin goddess
da, da, da.....

/\/\/\/\/\/\/\/\/\/\/\/\/\/\/\/\/\/\/\/\/\/\/\/\/\/\/\/\/\/\
Go to the top of the page
 
+Quote Post

19 страниц V   1 2 3 > » 
Reply to this topicStart new topic
1 чел. читают эту тему (гостей: 1, скрытых пользователей: 0)
Пользователей: 0

 



Текстовая версия Сейчас: 17th June 2019 - 14:27